ISO-10303-21;
HEADER;
FILE_DESCRIPTION (( 'STEP AP203' ),
    '1' );
FILE_NAME ('Q-SHPHWP-18-1030-M.STEP',
    '2020-12-22T08:58:13',
    ( '' ),
    ( '' ),
    'SwSTEP 2.0',
    'SolidWorks 2020',
    '' );
FILE_SCHEMA (( 'CONFIG_CONTROL_DESIGN' ));
ENDSEC;

DATA;
#1 = CALENDAR_DATE ( 2020, 22, 12 ) ;
#2 = ADVANCED_FACE ( 'NONE', ( #94 ), #23, .F. ) ;
#3 = VECTOR ( 'NONE', #109, 1000.000000000000000 ) ;
#4 = SHAPE_DEFINITION_REPRESENTATION ( #50, #237 ) ;
#5 = ADVANCED_FACE ( 'NONE', ( #51 ), #332, .F. ) ;
#6 = LINE ( 'NONE', #250, #18 ) ;
#7 = CYLINDRICAL_SURFACE ( 'NONE', #55, 9.000000000000000000 ) ;
#8 = VERTEX_POINT ( 'NONE', #257 ) ;
#9 = APPLICATION_CONTEXT ( 'configuration controlled 3d designs of mechanical parts and assemblies' ) ;
#10 = PLANE ( 'NONE',  #252 ) ;
#11 = DIRECTION ( 'NONE',  ( -1.000000000000000000, -0.000000000000000000, -0.000000000000000000 ) ) ;
#12 = APPROVAL_PERSON_ORGANIZATION ( #52, #117, #189 ) ;
#13 = DIRECTION ( 'NONE',  ( 0.000000000000000000, 0.000000000000000000, 1.000000000000000000 ) ) ;
#14 = FACE_OUTER_BOUND ( 'NONE', #294, .T. ) ;
#15 = CARTESIAN_POINT ( 'NONE',  ( 2.999999999999999112, 0.000000000000000000, 0.000000000000000000 ) ) ;
#16 = DIRECTION ( 'NONE',  ( 0.000000000000000000, 0.000000000000000000, 1.000000000000000000 ) ) ;
#17 = CIRCLE ( 'NONE', #60, 12.69999999999999929 ) ;
#18 = VECTOR ( 'NONE', #193, 1000.000000000000000 ) ;
#19 = ADVANCED_FACE ( 'NONE', ( #207 ), #75, .F. ) ;
#20 = AXIS2_PLACEMENT_3D ( 'NONE', #15, #30, #267 ) ;
#21 = EDGE_CURVE ( 'NONE', #230, #38, #202, .T. ) ;
#22 = AXIS2_PLACEMENT_3D ( 'NONE', #266, #334, #123 ) ;
#23 = CYLINDRICAL_SURFACE ( 'NONE', #45, 9.000000000000000000 ) ;
#24 =( NAMED_UNIT ( * ) SI_UNIT ( $, .STERADIAN. ) SOLID_ANGLE_UNIT ( ) );
#25 = DIRECTION ( 'NONE',  ( 1.000000000000000000, 0.000000000000000000, 0.000000000000000000 ) ) ;
#26 = DIRECTION ( 'NONE',  ( 0.000000000000000000, 0.000000000000000000, 1.000000000000000000 ) ) ;
#27 = CARTESIAN_POINT ( 'NONE',  ( -0.02950000000000044600, 1.102182119232617714E-15, -9.000000000000000000 ) ) ;
#28 = APPROVAL_STATUS ( 'not_yet_approved' ) ;
#29 = CARTESIAN_POINT ( 'NONE',  ( -3.000000000000000000, 0.000000000000000000, 12.69999999999999929 ) ) ;
#30 = DIRECTION ( 'NONE',  ( -1.000000000000000000, -0.000000000000000000, -0.000000000000000000 ) ) ;
#31 = PERSON_AND_ORGANIZATION_ROLE ( 'creator' ) ;
#32 = ORIENTED_EDGE ( 'NONE', *, *, #256, .F. ) ;
#33 = VERTEX_POINT ( 'NONE', #251 ) ;
#34 = CALENDAR_DATE ( 2020, 22, 12 ) ;
#35 = DIRECTION ( 'NONE',  ( 0.000000000000000000, 0.000000000000000000, 1.000000000000000000 ) ) ;
#36 = ORIENTED_EDGE ( 'NONE', *, *, #140, .T. ) ;
#37 = DIRECTION ( 'NONE',  ( -1.000000000000000000, -0.000000000000000000, -0.000000000000000000 ) ) ;
#38 = VERTEX_POINT ( 'NONE', #280 ) ;
#39 = ORIENTED_EDGE ( 'NONE', *, *, #112, .T. ) ;
#40 = FACE_OUTER_BOUND ( 'NONE', #82, .T. ) ;
#41 = ORIENTED_EDGE ( 'NONE', *, *, #331, .T. ) ;
#42 = CLOSED_SHELL ( 'NONE', ( #148, #174, #19, #172, #2, #68, #185, #91, #253, #5 ) ) ;
#43 = CARTESIAN_POINT ( 'NONE',  ( 2.999999999999999112, 1.102182119232617714E-15, -9.000000000000000000 ) ) ;
#44 = EDGE_CURVE ( 'NONE', #163, #192, #47, .T. ) ;
#45 = AXIS2_PLACEMENT_3D ( 'NONE', #229, #309, #175 ) ;
#46 = AXIS2_PLACEMENT_3D ( 'NONE', #260, #26, #286 ) ;
#47 = CIRCLE ( 'NONE', #20, 9.000000000000000000 ) ;
#48 = ORGANIZATION ( 'UNSPECIFIED', 'UNSPECIFIED', '' ) ;
#49 = FACE_BOUND ( 'NONE', #110, .T. ) ;
#50 = PRODUCT_DEFINITION_SHAPE ( 'NONE', 'NONE',  #160 ) ;
#51 = FACE_OUTER_BOUND ( 'NONE', #238, .T. ) ;
#52 = PERSON_AND_ORGANIZATION ( #156, #48 ) ;
#53 = AXIS2_PLACEMENT_3D ( 'NONE', #226, #168, #327 ) ;
#54 = PERSON_AND_ORGANIZATION_ROLE ( 'classification_officer' ) ;
#55 = AXIS2_PLACEMENT_3D ( 'NONE', #159, #272, #35 ) ;
#56 = DIRECTION ( 'NONE',  ( -1.000000000000000000, -0.000000000000000000, -0.000000000000000000 ) ) ;
#57 = COORDINATED_UNIVERSAL_TIME_OFFSET ( 8, 0, .AHEAD. ) ;
#58 = CARTESIAN_POINT ( 'NONE',  ( -1.614212418857619014, 0.000000000000000000, 0.000000000000000000 ) ) ;
#59 = EDGE_LOOP ( 'NONE', ( #214, #36, #157, #259 ) ) ;
#60 = AXIS2_PLACEMENT_3D ( 'NONE', #197, #11, #16 ) ;
#61 = CARTESIAN_POINT ( 'NONE',  ( -1.614212418857619014, 0.000000000000000000, 0.000000000000000000 ) ) ;
#62 = AXIS2_PLACEMENT_3D ( 'NONE', #165, #223, #291 ) ;
#63 = ORIENTED_EDGE ( 'NONE', *, *, #194, .F. ) ;
#64 = ORIENTED_EDGE ( 'NONE', *, *, #318, .T. ) ;
#65 = LOCAL_TIME ( 16, 58, 13.00000000000000000, #122 ) ;
#66 = FACE_BOUND ( 'NONE', #147, .T. ) ;
#67 = DIRECTION ( 'NONE',  ( 0.000000000000000000, 0.000000000000000000, -1.000000000000000000 ) ) ;
#68 = ADVANCED_FACE ( 'NONE', ( #101 ), #80, .F. ) ;
#69 = DIRECTION ( 'NONE',  ( -1.000000000000000000, 0.000000000000000000, -0.000000000000000000 ) ) ;
#70 = CC_DESIGN_APPROVAL ( #247, ( #143 ) ) ;
#71 = AXIS2_PLACEMENT_3D ( 'NONE', #61, #221, #217 ) ;
#72 = ORIENTED_EDGE ( 'NONE', *, *, #300, .T. ) ;
#73 =( LENGTH_UNIT ( ) NAMED_UNIT ( * ) SI_UNIT ( .MILLI., .METRE. ) );
#74 = CARTESIAN_POINT ( 'NONE',  ( -1.614212418857619014, 1.102182119232617714E-15, -9.000000000000000000 ) ) ;
#75 = CYLINDRICAL_SURFACE ( 'NONE', #292, 9.000000000000000000 ) ;
#76 = APPLICATION_PROTOCOL_DEFINITION ( 'international standard', 'config_control_design', 1994, #9 ) ;
#77 = APPROVAL_STATUS ( 'not_yet_approved' ) ;
#78 = DIRECTION ( 'NONE',  ( -1.000000000000000000, -0.000000000000000000, -0.000000000000000000 ) ) ;
#79 = PERSON_AND_ORGANIZATION ( #156, #48 ) ;
#80 = CYLINDRICAL_SURFACE ( 'NONE', #120, 9.000000000000000000 ) ;
#81 = COORDINATED_UNIVERSAL_TIME_OFFSET ( 8, 0, .AHEAD. ) ;
#82 = EDGE_LOOP ( 'NONE', ( #304, #279 ) ) ;
#83 = DIRECTION ( 'NONE',  ( -1.000000000000000000, -0.000000000000000000, -0.000000000000000000 ) ) ;
#84 = PERSON_AND_ORGANIZATION ( #156, #48 ) ;
#85 = CARTESIAN_POINT ( 'NONE',  ( 3.000000000000000000, 1.555301434917138433E-15, -12.69999999999999929 ) ) ;
#86 = EDGE_LOOP ( 'NONE', ( #39, #269, #72, #328 ) ) ;
#87 = APPROVAL_PERSON_ORGANIZATION ( #290, #247, #268 ) ;
#88 = DIRECTION ( 'NONE',  ( 1.000000000000000000, 0.000000000000000000, 0.000000000000000000 ) ) ;
#89 = EDGE_CURVE ( 'NONE', #132, #249, #17, .T. ) ;
#90 = CARTESIAN_POINT ( 'NONE',  ( -3.000000000000000000, 9.000000000000000000, 0.000000000000000000 ) ) ;
#91 = ADVANCED_FACE ( 'NONE', ( #14 ), #224, .T. ) ;
#92 = LINE ( 'NONE', #119, #152 ) ;
#93 = PRODUCT ( 'Q-SHPHWP-18-1030-M', 'Q-SHPHWP-18-1030-M', '', ( #95 ) ) ;
#94 = FACE_OUTER_BOUND ( 'NONE', #228, .T. ) ;
#95 = MECHANICAL_CONTEXT ( 'NONE', #113, 'mechanical' ) ;
#96 = PERSON_AND_ORGANIZATION ( #156, #48 ) ;
#97 = CARTESIAN_POINT ( 'NONE',  ( -3.000000000000000000, 0.000000000000000000, 9.000000000000000000 ) ) ;
#98 = CALENDAR_DATE ( 2020, 22, 12 ) ;
#99 = CC_DESIGN_PERSON_AND_ORGANIZATION_ASSIGNMENT ( #96, #311, ( #93 ) ) ;
#100 = ORIENTED_EDGE ( 'NONE', *, *, #44, .F. ) ;
#101 = FACE_OUTER_BOUND ( 'NONE', #276, .T. ) ;
#102 = LOCAL_TIME ( 16, 58, 13.00000000000000000, #57 ) ;
#103 = ORIENTED_EDGE ( 'NONE', *, *, #198, .T. ) ;
#104 = APPROVAL_DATE_TIME ( #178, #247 ) ;
#105 = DIRECTION ( 'NONE',  ( 0.000000000000000000, 0.000000000000000000, -1.000000000000000000 ) ) ;
#106 = ORIENTED_EDGE ( 'NONE', *, *, #261, .T. ) ;
#107 = APPROVAL_DATE_TIME ( #295, #117 ) ;
#108 = CARTESIAN_POINT ( 'NONE',  ( -1.614212418857619014, 1.102182119232617714E-15, -9.000000000000000000 ) ) ;
#109 = DIRECTION ( 'NONE',  ( -1.000000000000000000, -0.000000000000000000, -0.000000000000000000 ) ) ;
#110 = EDGE_LOOP ( 'NONE', ( #270, #106 ) ) ;
#111 = CARTESIAN_POINT ( 'NONE',  ( -1.614212418857619014, 0.000000000000000000, 12.69999999999999929 ) ) ;
#112 = EDGE_CURVE ( 'NONE', #184, #274, #330, .T. ) ;
#113 = APPLICATION_CONTEXT ( 'configuration controlled 3d designs of mechanical parts and assemblies' ) ;
#114 = EDGE_CURVE ( 'NONE', #249, #132, #180, .T. ) ;
#115 = VECTOR ( 'NONE', #37, 1000.000000000000000 ) ;
#116 = CIRCLE ( 'NONE', #316, 9.000000000000000000 ) ;
#117 = APPROVAL ( #335, 'UNSPECIFIED' ) ;
#118 = DIRECTION ( 'NONE',  ( -1.000000000000000000, -0.000000000000000000, -0.000000000000000000 ) ) ;
#119 = CARTESIAN_POINT ( 'NONE',  ( -1.614212418857619014, 0.000000000000000000, 9.000000000000000000 ) ) ;
#120 = AXIS2_PLACEMENT_3D ( 'NONE', #281, #139, #329 ) ;
#121 = DIRECTION ( 'NONE',  ( -1.000000000000000000, -0.000000000000000000, -0.000000000000000000 ) ) ;
#122 = COORDINATED_UNIVERSAL_TIME_OFFSET ( 8, 0, .AHEAD. ) ;
#123 = DIRECTION ( 'NONE',  ( 0.000000000000000000, 0.000000000000000000, 1.000000000000000000 ) ) ;
#124 = CC_DESIGN_PERSON_AND_ORGANIZATION_ASSIGNMENT ( #84, #54, ( #182 ) ) ;
#125 = DATE_TIME_ROLE ( 'classification_date' ) ;
#126 = CIRCLE ( 'NONE', #303, 9.000000000000000000 ) ;
#127 = CARTESIAN_POINT ( 'NONE',  ( -0.02950000000000044600, 0.000000000000000000, 0.000000000000000000 ) ) ;
#128 = EDGE_CURVE ( 'NONE', #163, #186, #299, .T. ) ;
#129 = UNCERTAINTY_MEASURE_WITH_UNIT (LENGTH_MEASURE( 1.000000000000000082E-05 ), #73, 'distance_accuracy_value', 'NONE');
#130 = CARTESIAN_POINT ( 'NONE',  ( 0.02950000000000055356, 9.000000000000000000, 0.000000000000000000 ) ) ;
#131 = ORIENTED_EDGE ( 'NONE', *, *, #141, .F. ) ;
#132 = VERTEX_POINT ( 'NONE', #85 ) ;
#133 = FACE_OUTER_BOUND ( 'NONE', #86, .T. ) ;
#134 = ORIENTED_EDGE ( 'NONE', *, *, #244, .T. ) ;
#135 = AXIS2_PLACEMENT_3D ( 'NONE', #173, #25, #203 ) ;
#136 = CARTESIAN_POINT ( 'NONE',  ( 0.02950000000000109479, 0.000000000000000000, 0.000000000000000000 ) ) ;
#137 = ORIENTED_EDGE ( 'NONE', *, *, #256, .T. ) ;
#138 = VECTOR ( 'NONE', #121, 1000.000000000000000 ) ;
#139 = DIRECTION ( 'NONE',  ( -1.000000000000000000, -0.000000000000000000, -0.000000000000000000 ) ) ;
#140 = EDGE_CURVE ( 'NONE', #132, #38, #6, .T. ) ;
#141 = EDGE_CURVE ( 'NONE', #38, #230, #205, .T. ) ;
#142 = MANIFOLD_SOLID_BREP ( 'Ðý×', #42 ) ;
#143 = PRODUCT_DEFINITION_FORMATION_WITH_SPECIFIED_SOURCE ( 'ANY', '', #93, .NOT_KNOWN. ) ;
#144 = AXIS2_PLACEMENT_3D ( 'NONE', #146, #149, #236 ) ;
#145 = ORIENTED_EDGE ( 'NONE', *, *, #179, .F. ) ;
#146 = CARTESIAN_POINT ( 'NONE',  ( -3.000000000000000000, 0.000000000000000000, 0.000000000000000000 ) ) ;
#147 = EDGE_LOOP ( 'NONE', ( #314, #317 ) ) ;
#148 = ADVANCED_FACE ( 'NONE', ( #164 ), #275, .T. ) ;
#149 = DIRECTION ( 'NONE',  ( -1.000000000000000000, -0.000000000000000000, -0.000000000000000000 ) ) ;
#150 = APPROVAL_ROLE ( '' ) ;
#151 = AXIS2_PLACEMENT_3D ( 'NONE', #58, #273, #13 ) ;
#152 = VECTOR ( 'NONE', #78, 1000.000000000000000 ) ;
#153 = EDGE_CURVE ( 'NONE', #249, #230, #191, .T. ) ;
#154 =( NAMED_UNIT ( * ) PLANE_ANGLE_UNIT ( ) SI_UNIT ( $, .RADIAN. ) );
#155 = COORDINATED_UNIVERSAL_TIME_OFFSET ( 8, 0, .AHEAD. ) ;
#156 = PERSON ( 'UNSPECIFIED', 'UNSPECIFIED', 'UNSPECIFIED', ('UNSPECIFIED'), ('UNSPECIFIED'), ('UNSPECIFIED') ) ;
#157 = ORIENTED_EDGE ( 'NONE', *, *, #21, .F. ) ;
#158 = DATE_AND_TIME ( #34, #102 ) ;
#159 = CARTESIAN_POINT ( 'NONE',  ( -1.614212418857619014, 0.000000000000000000, 0.000000000000000000 ) ) ;
#160 = PRODUCT_DEFINITION ( 'UNKNOWN', '', #143, #227 ) ;
#161 = CARTESIAN_POINT ( 'NONE',  ( 3.000000000000000000, 0.000000000000000000, 0.000000000000000000 ) ) ;
#162 = PLANE ( 'NONE',  #212 ) ;
#163 = VERTEX_POINT ( 'NONE', #278 ) ;
#164 = FACE_OUTER_BOUND ( 'NONE', #59, .T. ) ;
#165 = CARTESIAN_POINT ( 'NONE',  ( -3.000000000000000000, 0.000000000000000000, 0.000000000000000000 ) ) ;
#166 = VECTOR ( 'NONE', #297, 1000.000000000000000 ) ;
#167 = CIRCLE ( 'NONE', #22, 9.000000000000000000 ) ;
#168 = DIRECTION ( 'NONE',  ( -1.000000000000000000, -0.000000000000000000, -0.000000000000000000 ) ) ;
#169 = EDGE_LOOP ( 'NONE', ( #210, #289 ) ) ;
#170 = PRODUCT_RELATED_PRODUCT_CATEGORY ( 'detail', '', ( #93 ) ) ;
#171 = CIRCLE ( 'NONE', #310, 9.000000000000000000 ) ;
#172 = ADVANCED_FACE ( 'NONE', ( #188 ), #10, .F. ) ;
#173 = CARTESIAN_POINT ( 'NONE',  ( -0.02950000000000055356, 9.000000000000000000, 0.000000000000000000 ) ) ;
#174 = ADVANCED_FACE ( 'NONE', ( #133 ), #7, .F. ) ;
#175 = DIRECTION ( 'NONE',  ( 0.000000000000000000, 0.000000000000000000, 1.000000000000000000 ) ) ;
#176 = DIRECTION ( 'NONE',  ( -0.000000000000000000, 0.000000000000000000, 1.000000000000000000 ) ) ;
#177 = LINE ( 'NONE', #74, #138 ) ;
#178 = DATE_AND_TIME ( #288, #220 ) ;
#179 = EDGE_CURVE ( 'NONE', #274, #8, #326, .T. ) ;
#180 = CIRCLE ( 'NONE', #305, 12.69999999999999929 ) ;
#181 = PERSON_AND_ORGANIZATION_ROLE ( 'creator' ) ;
#182 = SECURITY_CLASSIFICATION ( '', '', #211 ) ;
#183 = DATE_AND_TIME ( #1, #232 ) ;
#184 = VERTEX_POINT ( 'NONE', #215 ) ;
#185 = ADVANCED_FACE ( 'NONE', ( #66, #40 ), #162, .F. ) ;
#186 = VERTEX_POINT ( 'NONE', #319 ) ;
#187 = PERSON_AND_ORGANIZATION ( #156, #48 ) ;
#188 = FACE_OUTER_BOUND ( 'NONE', #322, .T. ) ;
#189 = APPROVAL_ROLE ( '' ) ;
#190 = LOCAL_TIME ( 16, 58, 13.00000000000000000, #81 ) ;
#191 = LINE ( 'NONE', #111, #3 ) ;
#192 = VERTEX_POINT ( 'NONE', #43 ) ;
#193 = DIRECTION ( 'NONE',  ( -1.000000000000000000, -0.000000000000000000, -0.000000000000000000 ) ) ;
#194 = EDGE_CURVE ( 'NONE', #274, #184, #199, .T. ) ;
#195 = DIRECTION ( 'NONE',  ( 1.000000000000000000, 0.000000000000000000, 0.000000000000000000 ) ) ;
#196 = ORIENTED_EDGE ( 'NONE', *, *, #194, .T. ) ;
#197 = CARTESIAN_POINT ( 'NONE',  ( 3.000000000000000000, 0.000000000000000000, 0.000000000000000000 ) ) ;
#198 = EDGE_CURVE ( 'NONE', #186, #33, #116, .T. ) ;
#199 = CIRCLE ( 'NONE', #307, 9.000000000000000000 ) ;
#200 = CIRCLE ( 'NONE', #144, 9.000000000000000000 ) ;
#201 = CARTESIAN_POINT ( 'NONE',  ( 3.000000000000000000, 0.000000000000000000, 12.69999999999999929 ) ) ;
#202 = CIRCLE ( 'NONE', #53, 12.69999999999999929 ) ;
#203 = DIRECTION ( 'NONE',  ( 0.000000000000000000, 0.000000000000000000, -1.000000000000000000 ) ) ;
#204 = PLANE ( 'NONE',  #284 ) ;
#205 = CIRCLE ( 'NONE', #62, 12.69999999999999929 ) ;
#206 =( GEOMETRIC_REPRESENTATION_CONTEXT ( 3 ) GLOBAL_UNCERTAINTY_ASSIGNED_CONTEXT ( ( #129 ) ) GLOBAL_UNIT_ASSIGNED_CONTEXT ( ( #73, #154, #24 ) ) REPRESENTATION_CONTEXT ( 'NONE', 'WORKASPACE' ) );
#207 = FACE_OUTER_BOUND ( 'NONE', #219, .T. ) ;
#208 = APPLICATION_PROTOCOL_DEFINITION ( 'international standard', 'config_control_design', 1994, #113 ) ;
#209 = CARTESIAN_POINT ( 'NONE',  ( 2.999999999999999556, 12.69999999999999929, 0.000000000000000000 ) ) ;
#210 = ORIENTED_EDGE ( 'NONE', *, *, #114, .F. ) ;
#211 = SECURITY_CLASSIFICATION_LEVEL ( 'unclassified' ) ;
#212 = AXIS2_PLACEMENT_3D ( 'NONE', #90, #88, #277 ) ;
#213 = CC_DESIGN_APPROVAL ( #117, ( #160 ) ) ;
#214 = ORIENTED_EDGE ( 'NONE', *, *, #114, .T. ) ;
#215 = CARTESIAN_POINT ( 'NONE',  ( -0.02950000000000044600, 0.000000000000000000, 9.000000000000000000 ) ) ;
#216 = ORIENTED_EDGE ( 'NONE', *, *, #318, .F. ) ;
#217 = DIRECTION ( 'NONE',  ( 0.000000000000000000, 0.000000000000000000, 1.000000000000000000 ) ) ;
#218 = AXIS2_PLACEMENT_3D ( 'NONE', #248, #240, #67 ) ;
#219 = EDGE_LOOP ( 'NONE', ( #298, #137, #64, #324 ) ) ;
#220 = LOCAL_TIME ( 16, 58, 13.00000000000000000, #155 ) ;
#221 = DIRECTION ( 'NONE',  ( -1.000000000000000000, -0.000000000000000000, -0.000000000000000000 ) ) ;
#222 = ORIENTED_EDGE ( 'NONE', *, *, #112, .F. ) ;
#223 = DIRECTION ( 'NONE',  ( -1.000000000000000000, -0.000000000000000000, -0.000000000000000000 ) ) ;
#224 = CYLINDRICAL_SURFACE ( 'NONE', #71, 12.69999999999999929 ) ;
#225 = ORIENTED_EDGE ( 'NONE', *, *, #128, .T. ) ;
#226 = CARTESIAN_POINT ( 'NONE',  ( -3.000000000000000000, 0.000000000000000000, 0.000000000000000000 ) ) ;
#227 = DESIGN_CONTEXT ( 'detailed design', #9, 'design' ) ;
#228 = EDGE_LOOP ( 'NONE', ( #32, #100, #225, #103 ) ) ;
#229 = CARTESIAN_POINT ( 'NONE',  ( -1.614212418857619014, 0.000000000000000000, 0.000000000000000000 ) ) ;
#230 = VERTEX_POINT ( 'NONE', #29 ) ;
#231 = CC_DESIGN_PERSON_AND_ORGANIZATION_ASSIGNMENT ( #187, #31, ( #160 ) ) ;
#232 = LOCAL_TIME ( 16, 58, 13.00000000000000000, #263 ) ;
#233 = CARTESIAN_POINT ( 'NONE',  ( 0.02950000000000109479, 0.000000000000000000, 0.000000000000000000 ) ) ;
#234 = APPROVAL_DATE_TIME ( #243, #265 ) ;
#235 = ORIENTED_EDGE ( 'NONE', *, *, #153, .T. ) ;
#236 = DIRECTION ( 'NONE',  ( 0.000000000000000000, 0.000000000000000000, 1.000000000000000000 ) ) ;
#237 = ADVANCED_BREP_SHAPE_REPRESENTATION ( 'Q-SHPHWP-18-1030-M', ( #142, #46 ), #206 ) ;
#238 = EDGE_LOOP ( 'NONE', ( #222, #63 ) ) ;
#239 = DATE_TIME_ROLE ( 'creation_date' ) ;
#240 = DIRECTION ( 'NONE',  ( 1.000000000000000000, 0.000000000000000000, 0.000000000000000000 ) ) ;
#241 = ORIENTED_EDGE ( 'NONE', *, *, #140, .F. ) ;
#242 = ORIENTED_EDGE ( 'NONE', *, *, #198, .F. ) ;
#243 = DATE_AND_TIME ( #320, #190 ) ;
#244 = EDGE_CURVE ( 'NONE', #312, #8, #167, .T. ) ;
#245 = DIRECTION ( 'NONE',  ( -0.000000000000000000, 0.000000000000000000, 1.000000000000000000 ) ) ;
#246 = ORIENTED_EDGE ( 'NONE', *, *, #89, .T. ) ;
#247 = APPROVAL ( #77, 'UNSPECIFIED' ) ;
#248 = CARTESIAN_POINT ( 'NONE',  ( -0.02950000000000044600, 0.000000000000000000, 0.000000000000000000 ) ) ;
#249 = VERTEX_POINT ( 'NONE', #201 ) ;
#250 = CARTESIAN_POINT ( 'NONE',  ( -1.614212418857619014, 1.555301434917138433E-15, -12.69999999999999929 ) ) ;
#251 = CARTESIAN_POINT ( 'NONE',  ( 0.02950000000000109479, 1.102182119232617714E-15, -9.000000000000000000 ) ) ;
#252 = AXIS2_PLACEMENT_3D ( 'NONE', #130, #69, #245 ) ;
#253 = ADVANCED_FACE ( 'NONE', ( #308, #49 ), #204, .F. ) ;
#254 = CARTESIAN_POINT ( 'NONE',  ( 2.999999999999999112, 0.000000000000000000, 0.000000000000000000 ) ) ;
#255 = CC_DESIGN_SECURITY_CLASSIFICATION ( #182, ( #143 ) ) ;
#256 = EDGE_CURVE ( 'NONE', #192, #33, #177, .T. ) ;
#257 = CARTESIAN_POINT ( 'NONE',  ( -3.000000000000000000, 1.102182119232617714E-15, -9.000000000000000000 ) ) ;
#258 = CC_DESIGN_PERSON_AND_ORGANIZATION_ASSIGNMENT ( #79, #271, ( #143 ) ) ;
#259 = ORIENTED_EDGE ( 'NONE', *, *, #153, .F. ) ;
#260 = CARTESIAN_POINT ( 'NONE',  ( 0.000000000000000000, 0.000000000000000000, 0.000000000000000000 ) ) ;
#261 = EDGE_CURVE ( 'NONE', #192, #163, #171, .T. ) ;
#262 = DIRECTION ( 'NONE',  ( 0.000000000000000000, 0.000000000000000000, 1.000000000000000000 ) ) ;
#263 = COORDINATED_UNIVERSAL_TIME_OFFSET ( 8, 0, .AHEAD. ) ;
#264 = CC_DESIGN_APPROVAL ( #265, ( #182 ) ) ;
#265 = APPROVAL ( #28, 'UNSPECIFIED' ) ;
#266 = CARTESIAN_POINT ( 'NONE',  ( -3.000000000000000000, 0.000000000000000000, 0.000000000000000000 ) ) ;
#267 = DIRECTION ( 'NONE',  ( 0.000000000000000000, 0.000000000000000000, 1.000000000000000000 ) ) ;
#268 = APPROVAL_ROLE ( '' ) ;
#269 = ORIENTED_EDGE ( 'NONE', *, *, #179, .T. ) ;
#270 = ORIENTED_EDGE ( 'NONE', *, *, #44, .T. ) ;
#271 = PERSON_AND_ORGANIZATION_ROLE ( 'design_supplier' ) ;
#272 = DIRECTION ( 'NONE',  ( -1.000000000000000000, -0.000000000000000000, -0.000000000000000000 ) ) ;
#273 = DIRECTION ( 'NONE',  ( -1.000000000000000000, -0.000000000000000000, -0.000000000000000000 ) ) ;
#274 = VERTEX_POINT ( 'NONE', #27 ) ;
#275 = CYLINDRICAL_SURFACE ( 'NONE', #151, 12.69999999999999929 ) ;
#276 = EDGE_LOOP ( 'NONE', ( #145, #196, #41, #134 ) ) ;
#277 = DIRECTION ( 'NONE',  ( 0.000000000000000000, 0.000000000000000000, -1.000000000000000000 ) ) ;
#278 = CARTESIAN_POINT ( 'NONE',  ( 2.999999999999999112, 0.000000000000000000, 9.000000000000000000 ) ) ;
#279 = ORIENTED_EDGE ( 'NONE', *, *, #141, .T. ) ;
#280 = CARTESIAN_POINT ( 'NONE',  ( -3.000000000000000000, 1.555301434917138433E-15, -12.69999999999999929 ) ) ;
#281 = CARTESIAN_POINT ( 'NONE',  ( -1.614212418857619014, 0.000000000000000000, 0.000000000000000000 ) ) ;
#282 = APPROVAL_PERSON_ORGANIZATION ( #315, #265, #150 ) ;
#283 = CARTESIAN_POINT ( 'NONE',  ( -1.614212418857619014, 0.000000000000000000, 0.000000000000000000 ) ) ;
#284 = AXIS2_PLACEMENT_3D ( 'NONE', #209, #333, #176 ) ;
#285 = DIRECTION ( 'NONE',  ( -1.000000000000000000, -0.000000000000000000, -0.000000000000000000 ) ) ;
#286 = DIRECTION ( 'NONE',  ( 1.000000000000000000, 0.000000000000000000, 0.000000000000000000 ) ) ;
#287 = PERSON_AND_ORGANIZATION ( #156, #48 ) ;
#288 = CALENDAR_DATE ( 2020, 22, 12 ) ;
#289 = ORIENTED_EDGE ( 'NONE', *, *, #89, .F. ) ;
#290 = PERSON_AND_ORGANIZATION ( #156, #48 ) ;
#291 = DIRECTION ( 'NONE',  ( 0.000000000000000000, 0.000000000000000000, 1.000000000000000000 ) ) ;
#292 = AXIS2_PLACEMENT_3D ( 'NONE', #283, #118, #302 ) ;
#293 = DIRECTION ( 'NONE',  ( 0.000000000000000000, 0.000000000000000000, 1.000000000000000000 ) ) ;
#294 = EDGE_LOOP ( 'NONE', ( #241, #246, #235, #131 ) ) ;
#295 = DATE_AND_TIME ( #98, #65 ) ;
#296 = CC_DESIGN_PERSON_AND_ORGANIZATION_ASSIGNMENT ( #287, #181, ( #143 ) ) ;
#297 = DIRECTION ( 'NONE',  ( -1.000000000000000000, -0.000000000000000000, -0.000000000000000000 ) ) ;
#298 = ORIENTED_EDGE ( 'NONE', *, *, #261, .F. ) ;
#299 = LINE ( 'NONE', #301, #115 ) ;
#300 = EDGE_CURVE ( 'NONE', #8, #312, #200, .T. ) ;
#301 = CARTESIAN_POINT ( 'NONE',  ( -1.614212418857619014, 0.000000000000000000, 9.000000000000000000 ) ) ;
#302 = DIRECTION ( 'NONE',  ( 0.000000000000000000, 0.000000000000000000, 1.000000000000000000 ) ) ;
#303 = AXIS2_PLACEMENT_3D ( 'NONE', #233, #285, #313 ) ;
#304 = ORIENTED_EDGE ( 'NONE', *, *, #21, .T. ) ;
#305 = AXIS2_PLACEMENT_3D ( 'NONE', #161, #323, #321 ) ;
#306 = CC_DESIGN_DATE_AND_TIME_ASSIGNMENT ( #183, #239, ( #160 ) ) ;
#307 = AXIS2_PLACEMENT_3D ( 'NONE', #127, #195, #105 ) ;
#308 = FACE_OUTER_BOUND ( 'NONE', #169, .T. ) ;
#309 = DIRECTION ( 'NONE',  ( -1.000000000000000000, -0.000000000000000000, -0.000000000000000000 ) ) ;
#310 = AXIS2_PLACEMENT_3D ( 'NONE', #254, #56, #262 ) ;
#311 = PERSON_AND_ORGANIZATION_ROLE ( 'design_owner' ) ;
#312 = VERTEX_POINT ( 'NONE', #97 ) ;
#313 = DIRECTION ( 'NONE',  ( 0.000000000000000000, 0.000000000000000000, 1.000000000000000000 ) ) ;
#314 = ORIENTED_EDGE ( 'NONE', *, *, #244, .F. ) ;
#315 = PERSON_AND_ORGANIZATION ( #156, #48 ) ;
#316 = AXIS2_PLACEMENT_3D ( 'NONE', #136, #83, #293 ) ;
#317 = ORIENTED_EDGE ( 'NONE', *, *, #300, .F. ) ;
#318 = EDGE_CURVE ( 'NONE', #33, #186, #126, .T. ) ;
#319 = CARTESIAN_POINT ( 'NONE',  ( 0.02950000000000109479, 0.000000000000000000, 9.000000000000000000 ) ) ;
#320 = CALENDAR_DATE ( 2020, 22, 12 ) ;
#321 = DIRECTION ( 'NONE',  ( 0.000000000000000000, 0.000000000000000000, 1.000000000000000000 ) ) ;
#322 = EDGE_LOOP ( 'NONE', ( #242, #216 ) ) ;
#323 = DIRECTION ( 'NONE',  ( -1.000000000000000000, -0.000000000000000000, -0.000000000000000000 ) ) ;
#324 = ORIENTED_EDGE ( 'NONE', *, *, #128, .F. ) ;
#325 = CC_DESIGN_DATE_AND_TIME_ASSIGNMENT ( #158, #125, ( #182 ) ) ;
#326 = LINE ( 'NONE', #108, #166 ) ;
#327 = DIRECTION ( 'NONE',  ( 0.000000000000000000, 0.000000000000000000, 1.000000000000000000 ) ) ;
#328 = ORIENTED_EDGE ( 'NONE', *, *, #331, .F. ) ;
#329 = DIRECTION ( 'NONE',  ( 0.000000000000000000, 0.000000000000000000, 1.000000000000000000 ) ) ;
#330 = CIRCLE ( 'NONE', #218, 9.000000000000000000 ) ;
#331 = EDGE_CURVE ( 'NONE', #184, #312, #92, .T. ) ;
#332 = PLANE ( 'NONE',  #135 ) ;
#333 = DIRECTION ( 'NONE',  ( -1.000000000000000000, 0.000000000000000000, -0.000000000000000000 ) ) ;
#334 = DIRECTION ( 'NONE',  ( -1.000000000000000000, -0.000000000000000000, -0.000000000000000000 ) ) ;
#335 = APPROVAL_STATUS ( 'not_yet_approved' ) ;
ENDSEC;
END-ISO-10303-21;
